ISO-10303-21;
HEADER;
FILE_DESCRIPTION(('STEP AP214'),'1');
FILE_NAME('001 Stands _Gyroscope.stp','2025-01-23T01:06:26',(' '),(' '),'Spatial InterOp 3D',' ',' ');
FILE_SCHEMA(('AUTOMOTIVE_DESIGN { 1 0 10303 214 1 1 1 1 }'));
ENDSEC;
DATA;
#1=PRODUCT_DEFINITION_CONTEXT('',#16,'design');
#2=APPLICATION_PROTOCOL_DEFINITION('INTERNATIONAL STANDARD','automotive_design',1994,#16);
#3=PRODUCT_CATEGORY_RELATIONSHIP('NONE','NONE',#17,#18);
#4=SHAPE_DEFINITION_REPRESENTATION(#19,#20);
#5=PRODUCT_DEFINITION_CONTEXT('',#21,'design');
#6=APPLICATION_PROTOCOL_DEFINITION('INTERNATIONAL STANDARD','automotive_design',1994,#21);
#7=PRODUCT_CATEGORY_RELATIONSHIP('NONE','NONE',#22,#23);
#8=CONTEXT_DEPENDENT_SHAPE_REPRESENTATION(#24,#25);
#9=SHAPE_DEFINITION_REPRESENTATION(#26,#27);
#10=SHAPE_REPRESENTATION_RELATIONSHIP('NONE','NONE',#27,#28);
#11=MECHANICAL_DESIGN_GEOMETRIC_PRESENTATION_REPRESENTATION(' ',(#29),#12);
#12= (GEOMETRIC_REPRESENTATION_CONTEXT(3)GLOBAL_UNCERTAINTY_ASSIGNED_CONTEXT((#32))GLOBAL_UNIT_ASSIGNED_CONTEXT((#34,#35,#36))REPRESENTATION_CONTEXT('NONE','WORKSPACE'));
#16=APPLICATION_CONTEXT(' ');
#17=PRODUCT_CATEGORY('part','NONE');
#18=PRODUCT_RELATED_PRODUCT_CATEGORY('detail',' ',(#38));
#19=PRODUCT_DEFINITION_SHAPE('NONE','NONE',#39);
#20=SHAPE_REPRESENTATION('001 Stands _Gyroscope',(#40,#41),#42);
#21=APPLICATION_CONTEXT(' ');
#22=PRODUCT_CATEGORY('part','NONE');
#23=PRODUCT_RELATED_PRODUCT_CATEGORY('detail',' ',(#43));
#24=(REPRESENTATION_RELATIONSHIP('','',#27,#20)REPRESENTATION_RELATIONSHIP_WITH_TRANSFORMATION(#46)SHAPE_REPRESENTATION_RELATIONSHIP());
#25=PRODUCT_DEFINITION_SHAPE('NAUO-PROD-DEF','NAUO-PROD-DEF',#48);
#26=PRODUCT_DEFINITION_SHAPE('NONE','NONE',#49);
#27=SHAPE_REPRESENTATION('Fillet2',(#40),#42);
#28=ADVANCED_BREP_SHAPE_REPRESENTATION('Fillet21',(#50),#12);
#29=STYLED_ITEM('',(#51),#50);
#32=UNCERTAINTY_MEASURE_WITH_UNIT(LENGTH_MEASURE(1.0E-08),#34,'','');
#34= (CONVERSION_BASED_UNIT('METRE',#54)LENGTH_UNIT()NAMED_UNIT(#57));
#35= (NAMED_UNIT(#59)PLANE_ANGLE_UNIT()SI_UNIT($,.RADIAN.));
#36= (NAMED_UNIT(#59)SOLID_ANGLE_UNIT()SI_UNIT($,.STERADIAN.));
#38=PRODUCT('001 Stands _Gyroscope','001 Stands _Gyroscope','PART--DESC',(#65));
#39=PRODUCT_DEFINITION('001 Stands _Gyroscope','001 Stands _Gyroscope',#66,#1);
#40=AXIS2_PLACEMENT_3D('',#67,#68,#69);
#41=AXIS2_PLACEMENT_3D('',#70,#71,#72);
#42= (GEOMETRIC_REPRESENTATION_CONTEXT(3)GLOBAL_UNCERTAINTY_ASSIGNED_CONTEXT((#75))GLOBAL_UNIT_ASSIGNED_CONTEXT((#77,#78,#79))REPRESENTATION_CONTEXT('NONE','WORKSPACE'));
#43=PRODUCT('Fillet2','Fillet2','PART-Fillet2-DESC',(#81));
#46=ITEM_DEFINED_TRANSFORMATION('','',#40,#41);
#48=NEXT_ASSEMBLY_USAGE_OCCURRENCE('Fillet2','Fillet2','Fillet2',#39,#49,$);
#49=PRODUCT_DEFINITION('Fillet2','Fillet2',#82,#5);
#50=MANIFOLD_SOLID_BREP('Fillet21',#83);
#51=PRESENTATION_STYLE_ASSIGNMENT((#84));
#54=LENGTH_MEASURE_WITH_UNIT(LENGTH_MEASURE(1.0),#85);
#57=DIMENSIONAL_EXPONENTS(1.0,0.0,0.0,0.0,0.0,0.0,0.0);
#59=DIMENSIONAL_EXPONENTS(0.0,0.0,0.0,0.0,0.0,0.0,0.0);
#65=PRODUCT_CONTEXT('',#16,'mechanical');
#66=PRODUCT_DEFINITION_FORMATION_WITH_SPECIFIED_SOURCE(' ','NONE',#38,.NOT_KNOWN.);
#67=CARTESIAN_POINT('',(0.0,0.0,0.0));
#68=DIRECTION('',(0.0,0.0,1.0));
#69=DIRECTION('',(1.0,0.0,0.0));
#70=CARTESIAN_POINT('',(-0.028100078431132,-0.035051266977484,-0.024345114017246));
#71=DIRECTION('',(0.0,0.0,1.0));
#72=DIRECTION('',(1.0,0.0,0.0));
#75=UNCERTAINTY_MEASURE_WITH_UNIT(LENGTH_MEASURE(1.0E-08),#77,'','');
#77= (CONVERSION_BASED_UNIT('METRE',#88)LENGTH_UNIT()NAMED_UNIT(#91));
#78= (NAMED_UNIT(#93)PLANE_ANGLE_UNIT()SI_UNIT($,.RADIAN.));
#79= (NAMED_UNIT(#93)SOLID_ANGLE_UNIT()SI_UNIT($,.STERADIAN.));
#81=PRODUCT_CONTEXT('',#21,'mechanical');
#82=PRODUCT_DEFINITION_FORMATION_WITH_SPECIFIED_SOURCE(' ','NONE',#43,.NOT_KNOWN.);
#83=CLOSED_SHELL('',(#99,#100,#101,#102,#103,#104,#105,#106,#107,#108,#109,#110,#111,#112,#113));
#84=SURFACE_STYLE_USAGE(.BOTH.,#114);
#85= (NAMED_UNIT(#57)LENGTH_UNIT()SI_UNIT($,.METRE.));
#88=LENGTH_MEASURE_WITH_UNIT(LENGTH_MEASURE(1.0),#116);
#91=DIMENSIONAL_EXPONENTS(1.0,0.0,0.0,0.0,0.0,0.0,0.0);
#93=DIMENSIONAL_EXPONENTS(0.0,0.0,0.0,0.0,0.0,0.0,0.0);
#99=ADVANCED_FACE('1:1185',(#117),#118,.F.);
#100=ADVANCED_FACE('1:1175',(#119),#120,.T.);
#101=ADVANCED_FACE('1:1165',(#121),#122,.T.);
#102=ADVANCED_FACE('1:1119',(#123),#124,.T.);
#103=ADVANCED_FACE('1:1155',(#125),#126,.F.);
#104=ADVANCED_FACE('1:1145',(#127),#128,.T.);
#105=ADVANCED_FACE('1:1195',(#129),#130,.T.);
#106=ADVANCED_FACE('1:1195',(#131),#132,.T.);
#107=ADVANCED_FACE('1:1145',(#133),#134,.T.);
#108=ADVANCED_FACE('1:1155',(#135),#136,.F.);
#109=ADVANCED_FACE('1:1119',(#137),#138,.T.);
#110=ADVANCED_FACE('1:1165',(#139),#140,.T.);
#111=ADVANCED_FACE('1:1175',(#141),#142,.T.);
#112=ADVANCED_FACE('1:1185',(#143),#144,.F.);
#113=ADVANCED_FACE('1:1205',(#145,#146),#147,.T.);
#114=SURFACE_SIDE_STYLE('',(#148));
#116= (NAMED_UNIT(#91)LENGTH_UNIT()SI_UNIT($,.METRE.));
#117=FACE_OUTER_BOUND('',#150,.T.);
#118=TOROIDAL_SURFACE('',#151,0.00935679569914795,0.003175);
#119=FACE_OUTER_BOUND('',#152,.T.);
#120=CONICAL_SURFACE('',#153,0.0128760324329843,0.986111027376799);
#121=FACE_OUTER_BOUND('',#154,.T.);
#122=TOROIDAL_SURFACE('',#155,0.0111236325046185,0.003175);
#123=FACE_OUTER_BOUND('',#156,.T.);
#124=TOROIDAL_SURFACE('',#157,0.00381,0.00254);
#125=FACE_OUTER_BOUND('',#158,.T.);
#126=CYLINDRICAL_SURFACE('',#159,0.00127);
#127=FACE_OUTER_BOUND('',#160,.T.);
#128=TOROIDAL_SURFACE('',#161,0.00337850963023763,0.000508);
#129=FACE_OUTER_BOUND('',#162,.T.);
#130=CONICAL_SURFACE('',#163,0.00618295927670734,0.078539816339745);
#131=FACE_OUTER_BOUND('',#164,.T.);
#132=CONICAL_SURFACE('',#165,0.00618295927670734,0.078539816339745);
#133=FACE_OUTER_BOUND('',#166,.T.);
#134=TOROIDAL_SURFACE('',#167,0.00337850963023763,0.000508);
#135=FACE_OUTER_BOUND('',#168,.T.);
#136=CYLINDRICAL_SURFACE('',#169,0.00127);
#137=FACE_OUTER_BOUND('',#170,.T.);
#138=TOROIDAL_SURFACE('',#171,0.00381,0.00254);
#139=FACE_OUTER_BOUND('',#172,.T.);
#140=TOROIDAL_SURFACE('',#173,0.0111236325046185,0.003175);
#141=FACE_OUTER_BOUND('',#174,.T.);
#142=CONICAL_SURFACE('',#175,0.0128760324329843,0.986111027376799);
#143=FACE_OUTER_BOUND('',#176,.T.);
#144=TOROIDAL_SURFACE('',#177,0.00935679569914795,0.003175);
#145=FACE_BOUND('',#178,.T.);
#146=FACE_OUTER_BOUND('',#179,.T.);
#147=PLANE('',#180);
#148=SURFACE_STYLE_FILL_AREA(#181);
#150=EDGE_LOOP('',(#182,#183,#184,#185));
#151=AXIS2_PLACEMENT_3D('',#186,#187,#188);
#152=EDGE_LOOP('',(#189,#190,#191,#192));
#153=AXIS2_PLACEMENT_3D('',#193,#194,#195);
#154=EDGE_LOOP('',(#196,#197,#198,#199));
#155=AXIS2_PLACEMENT_3D('',#200,#201,#202);
#156=EDGE_LOOP('',(#203,#204,#205,#206));
#157=AXIS2_PLACEMENT_3D('',#207,#208,#209);
#158=EDGE_LOOP('',(#210,#211,#212,#213));
#159=AXIS2_PLACEMENT_3D('',#214,#215,#216);
#160=EDGE_LOOP('',(#217,#218,#219,#220));
#161=AXIS2_PLACEMENT_3D('',#221,#222,#223);
#162=EDGE_LOOP('',(#224,#225,#226,#227));
#163=AXIS2_PLACEMENT_3D('',#228,#229,#230);
#164=EDGE_LOOP('',(#231,#232,#233,#234));
#165=AXIS2_PLACEMENT_3D('',#235,#236,#237);
#166=EDGE_LOOP('',(#238,#239,#240,#241));
#167=AXIS2_PLACEMENT_3D('',#242,#243,#244);
#168=EDGE_LOOP('',(#245,#246,#247,#248));
#169=AXIS2_PLACEMENT_3D('',#249,#250,#251);
#170=EDGE_LOOP('',(#252,#253,#254,#255));
#171=AXIS2_PLACEMENT_3D('',#256,#257,#258);
#172=EDGE_LOOP('',(#259,#260,#261,#262));
#173=AXIS2_PLACEMENT_3D('',#263,#264,#265);
#174=EDGE_LOOP('',(#266,#267,#268,#269));
#175=AXIS2_PLACEMENT_3D('',#270,#271,#272);
#176=EDGE_LOOP('',(#273,#274,#275,#276));
#177=AXIS2_PLACEMENT_3D('',#277,#278,#279);
#178=EDGE_LOOP('',(#280,#281));
#179=EDGE_LOOP('',(#282,#283));
#180=AXIS2_PLACEMENT_3D('',#284,#285,#286);
#181=FILL_AREA_STYLE('',(#287));
#182=ORIENTED_EDGE('',*,*,#288,.F.);
#183=ORIENTED_EDGE('',*,*,#289,.T.);
#184=ORIENTED_EDGE('',*,*,#290,.F.);
#185=ORIENTED_EDGE('',*,*,#291,.F.);
#186=CARTESIAN_POINT('',(0.0,0.00851874977364371,0.0));
#187=DIRECTION('',(0.0,-1.0,0.0));
#188=DIRECTION('',(0.0,0.0,-1.0));
#189=ORIENTED_EDGE('',*,*,#292,.F.);
#190=ORIENTED_EDGE('',*,*,#293,.F.);
#191=ORIENTED_EDGE('',*,*,#294,.F.);
#192=ORIENTED_EDGE('',*,*,#295,.T.);
#193=CARTESIAN_POINT('',(0.0,0.00238194209799903,0.0));
#194=DIRECTION('',(-0.0,-1.0,-0.0));
#195=DIRECTION('',(0.0,0.0,-1.0));
#196=ORIENTED_EDGE('',*,*,#296,.F.);
#197=ORIENTED_EDGE('',*,*,#297,.T.);
#198=ORIENTED_EDGE('',*,*,#298,.F.);
#199=ORIENTED_EDGE('',*,*,#299,.F.);
#200=CARTESIAN_POINT('',(0.0,-0.000265645387064228,0.0));
#201=DIRECTION('',(0.0,-1.0,0.0));
#202=DIRECTION('',(0.0,0.0,-1.0));
#203=ORIENTED_EDGE('',*,*,#300,.F.);
#204=ORIENTED_EDGE('',*,*,#301,.T.);
#205=ORIENTED_EDGE('',*,*,#302,.F.);
#206=ORIENTED_EDGE('',*,*,#303,.F.);
#207=CARTESIAN_POINT('',(0.0,0.0355969186867378,0.0));
#208=DIRECTION('',(0.0,1.0,0.0));
#209=DIRECTION('',(0.0,0.0,1.0));
#210=ORIENTED_EDGE('',*,*,#304,.F.);
#211=ORIENTED_EDGE('',*,*,#305,.T.);
#212=ORIENTED_EDGE('',*,*,#306,.F.);
#213=ORIENTED_EDGE('',*,*,#307,.F.);
#214=CARTESIAN_POINT('',(0.0,0.038101,0.0));
#215=DIRECTION('',(-0.0,1.0,0.0));
#216=DIRECTION('',(0.0,0.0,-1.0));
#217=ORIENTED_EDGE('',*,*,#308,.F.);
#218=ORIENTED_EDGE('',*,*,#309,.F.);
#219=ORIENTED_EDGE('',*,*,#310,.F.);
#220=ORIENTED_EDGE('',*,*,#301,.F.);
#221=CARTESIAN_POINT('',(0.0,0.037592,0.0));
#222=DIRECTION('',(0.0,1.0,0.0));
#223=DIRECTION('',(0.0,0.0,1.0));
#224=ORIENTED_EDGE('',*,*,#311,.F.);
#225=ORIENTED_EDGE('',*,*,#312,.F.);
#226=ORIENTED_EDGE('',*,*,#313,.F.);
#227=ORIENTED_EDGE('',*,*,#314,.T.);
#228=CARTESIAN_POINT('',(0.0,0.0084328,0.0));
#229=DIRECTION('',(-0.0,-1.0,-0.0));
#230=DIRECTION('',(0.0,0.0,-1.0));
#231=ORIENTED_EDGE('',*,*,#311,.T.);
#232=ORIENTED_EDGE('',*,*,#309,.T.);
#233=ORIENTED_EDGE('',*,*,#313,.T.);
#234=ORIENTED_EDGE('',*,*,#289,.F.);
#235=CARTESIAN_POINT('',(0.0,0.0084328,0.0));
#236=DIRECTION('',(-0.0,-1.0,-0.0));
#237=DIRECTION('',(0.0,0.0,-1.0));
#238=ORIENTED_EDGE('',*,*,#308,.T.);
#239=ORIENTED_EDGE('',*,*,#315,.F.);
#240=ORIENTED_EDGE('',*,*,#310,.T.);
#241=ORIENTED_EDGE('',*,*,#314,.F.);
#242=CARTESIAN_POINT('',(0.0,0.037592,0.0));
#243=DIRECTION('',(0.0,1.0,0.0));
#244=DIRECTION('',(0.0,0.0,1.0));
#245=ORIENTED_EDGE('',*,*,#304,.T.);
#246=ORIENTED_EDGE('',*,*,#316,.F.);
#247=ORIENTED_EDGE('',*,*,#306,.T.);
#248=ORIENTED_EDGE('',*,*,#303,.T.);
#249=CARTESIAN_POINT('',(0.0,0.038101,0.0));
#250=DIRECTION('',(-0.0,1.0,0.0));
#251=DIRECTION('',(0.0,0.0,-1.0));
#252=ORIENTED_EDGE('',*,*,#300,.T.);
#253=ORIENTED_EDGE('',*,*,#305,.F.);
#254=ORIENTED_EDGE('',*,*,#302,.T.);
#255=ORIENTED_EDGE('',*,*,#315,.T.);
#256=CARTESIAN_POINT('',(0.0,0.0355969186867378,0.0));
#257=DIRECTION('',(0.0,1.0,0.0));
#258=DIRECTION('',(0.0,0.0,1.0));
#259=ORIENTED_EDGE('',*,*,#296,.T.);
#260=ORIENTED_EDGE('',*,*,#317,.F.);
#261=ORIENTED_EDGE('',*,*,#298,.T.);
#262=ORIENTED_EDGE('',*,*,#293,.T.);
#263=CARTESIAN_POINT('',(0.0,-0.000265645387064228,0.0));
#264=DIRECTION('',(0.0,-1.0,0.0));
#265=DIRECTION('',(0.0,0.0,-1.0));
#266=ORIENTED_EDGE('',*,*,#292,.T.);
#267=ORIENTED_EDGE('',*,*,#291,.T.);
#268=ORIENTED_EDGE('',*,*,#294,.T.);
#269=ORIENTED_EDGE('',*,*,#297,.F.);
#270=CARTESIAN_POINT('',(0.0,0.00238194209799903,0.0));
#271=DIRECTION('',(-0.0,-1.0,-0.0));
#272=DIRECTION('',(0.0,0.0,-1.0));
#273=ORIENTED_EDGE('',*,*,#288,.T.);
#274=ORIENTED_EDGE('',*,*,#295,.F.);
#275=ORIENTED_EDGE('',*,*,#290,.T.);
#276=ORIENTED_EDGE('',*,*,#312,.T.);
#277=CARTESIAN_POINT('',(0.0,0.00851874977364371,0.0));
#278=DIRECTION('',(0.0,-1.0,0.0));
#279=DIRECTION('',(0.0,0.0,-1.0));
#280=ORIENTED_EDGE('',*,*,#316,.T.);
#281=ORIENTED_EDGE('',*,*,#307,.T.);
#282=ORIENTED_EDGE('',*,*,#299,.T.);
#283=ORIENTED_EDGE('',*,*,#317,.T.);
#284=CARTESIAN_POINT('',(0.0,0.0,0.0));
#285=DIRECTION('',(0.0,-1.0,0.0));
#286=DIRECTION('',(0.0,0.0,-1.0));
#287=FILL_AREA_STYLE_COLOUR('',#318);
#288=EDGE_CURVE('',#319,#320,#321,.T.);
#289=EDGE_CURVE('1:1405',#319,#322,#323,.T.);
#290=EDGE_CURVE('',#324,#322,#325,.T.);
#291=EDGE_CURVE('1:1395',#320,#324,#326,.T.);
#292=EDGE_CURVE('',#327,#320,#328,.T.);
#293=EDGE_CURVE('1:1385',#329,#327,#330,.T.);
#294=EDGE_CURVE('',#324,#329,#331,.T.);
#295=EDGE_CURVE('1:1395',#324,#320,#332,.T.);
#296=EDGE_CURVE('',#327,#333,#334,.T.);
#297=EDGE_CURVE('1:1385',#327,#329,#335,.T.);
#298=EDGE_CURVE('',#336,#329,#337,.T.);
#299=EDGE_CURVE('1:1375',#333,#336,#338,.T.);
#300=EDGE_CURVE('',#339,#340,#341,.T.);
#301=EDGE_CURVE('1:1345',#339,#342,#343,.T.);
#302=EDGE_CURVE('',#344,#342,#345,.T.);
#303=EDGE_CURVE('1:1335',#340,#344,#346,.T.);
#304=EDGE_CURVE('',#344,#347,#348,.T.);
#305=EDGE_CURVE('1:1335',#344,#340,#349,.T.);
#306=EDGE_CURVE('',#350,#340,#351,.T.);
#307=EDGE_CURVE('1:1365',#347,#350,#352,.T.);
#308=EDGE_CURVE('',#353,#339,#354,.T.);
#309=EDGE_CURVE('1:1352',#355,#353,#356,.T.);
#310=EDGE_CURVE('',#342,#355,#357,.T.);
#311=EDGE_CURVE('',#319,#355,#358,.T.);
#312=EDGE_CURVE('1:1405',#322,#319,#359,.T.);
#313=EDGE_CURVE('',#353,#322,#360,.T.);
#314=EDGE_CURVE('1:1352',#353,#355,#361,.T.);
#315=EDGE_CURVE('1:1345',#342,#339,#362,.T.);
#316=EDGE_CURVE('1:1365',#350,#347,#363,.T.);
#317=EDGE_CURVE('1:1375',#336,#333,#364,.T.);
#318=COLOUR_RGB('',0.752941191196442,0.752941191196442,0.752941191196442);
#319=VERTEX_POINT('',#365);
#320=VERTEX_POINT('',#366);
#321=CIRCLE('',#367,0.003175);
#322=VERTEX_POINT('',#368);
#323=CIRCLE('',#369,0.00618295927670734);
#324=VERTEX_POINT('',#370);
#325=CIRCLE('',#371,0.003175);
#326=CIRCLE('',#372,0.00760439577078217);
#327=VERTEX_POINT('',#373);
#328=LINE('',#374,#375);
#329=VERTEX_POINT('',#376);
#330=CIRCLE('',#377,0.0128760324329843);
#331=LINE('',#378,#379);
#332=CIRCLE('',#380,0.00760439577078217);
#333=VERTEX_POINT('',#381);
#334=CIRCLE('',#382,0.003175);
#335=CIRCLE('',#383,0.0128760324329843);
#336=VERTEX_POINT('',#384);
#337=CIRCLE('',#385,0.003175);
#338=CIRCLE('',#386,0.0142875);
#339=VERTEX_POINT('',#387);
#340=VERTEX_POINT('',#388);
#341=CIRCLE('',#389,0.00254);
#342=VERTEX_POINT('',#390);
#343=CIRCLE('',#391,0.00337850963023763);
#344=VERTEX_POINT('',#392);
#345=CIRCLE('',#393,0.00254);
#346=CIRCLE('',#394,0.00127);
#347=VERTEX_POINT('',#395);
#348=LINE('',#396,#397);
#349=CIRCLE('',#398,0.00127);
#350=VERTEX_POINT('',#399);
#351=LINE('',#400,#401);
#352=CIRCLE('',#402,0.00127);
#353=VERTEX_POINT('',#403);
#354=CIRCLE('',#404,0.000508);
#355=VERTEX_POINT('',#405);
#356=CIRCLE('',#406,0.00388494363577406);
#357=CIRCLE('',#407,0.000508);
#358=LINE('',#408,#409);
#359=CIRCLE('',#410,0.00618295927670734);
#360=LINE('',#411,#412);
#361=CIRCLE('',#413,0.00388494363577406);
#362=CIRCLE('',#414,0.00337850963023763);
#363=CIRCLE('',#415,0.00127);
#364=CIRCLE('',#416,0.0142875);
#365=CARTESIAN_POINT('',(0.0,0.0084328,-0.00618295927670734));
#366=CARTESIAN_POINT('',(0.0,0.00587116228858044,-0.00760439577078217));
#367=AXIS2_PLACEMENT_3D('',#417,#418,#419);
#368=CARTESIAN_POINT('',(-7.57194128747808E-19,0.0084328,0.00618295927670734));
#369=AXIS2_PLACEMENT_3D('',#420,#421,#422);
#370=CARTESIAN_POINT('',(-9.31269894013805E-19,0.00587116228858044,0.00760439577078217));
#371=AXIS2_PLACEMENT_3D('',#423,#424,#425);
#372=AXIS2_PLACEMENT_3D('',#426,#427,#428);
#373=CARTESIAN_POINT('',(0.0,0.00238194209799903,-0.0128760324329843));
#374=CARTESIAN_POINT('',(1.57685919047717E-18,0.00238194209799903,-0.0128760324329843));
#375=VECTOR('',#429,1.0);
#376=CARTESIAN_POINT('',(1.57685919047717E-18,0.00238194209799903,0.0128760324329843));
#377=AXIS2_PLACEMENT_3D('',#430,#431,#432);
#378=CARTESIAN_POINT('',(-1.57685919047717E-18,0.00238194209799903,0.0128760324329843));
#379=VECTOR('',#433,1.0);
#380=AXIS2_PLACEMENT_3D('',#434,#435,#436);
#381=CARTESIAN_POINT('',(0.0,0.0,-0.0142875));
#382=AXIS2_PLACEMENT_3D('',#437,#438,#439);
#383=AXIS2_PLACEMENT_3D('',#440,#441,#442);
#384=CARTESIAN_POINT('',(1.74971411428178E-18,0.0,0.0142875));
#385=AXIS2_PLACEMENT_3D('',#443,#444,#445);
#386=AXIS2_PLACEMENT_3D('',#446,#447,#448);
#387=CARTESIAN_POINT('',(0.0,0.0381,0.00337850963023763));
#388=CARTESIAN_POINT('',(0.0,0.0355969186867378,0.00127));
#389=AXIS2_PLACEMENT_3D('',#449,#450,#451);
#390=CARTESIAN_POINT('',(4.13748100455902E-19,0.0381,-0.00337850963023763));
#391=AXIS2_PLACEMENT_3D('',#452,#453,#454);
#392=CARTESIAN_POINT('',(1.55530143491714E-19,0.0355969186867378,-0.00127));
#393=AXIS2_PLACEMENT_3D('',#455,#456,#457);
#394=AXIS2_PLACEMENT_3D('',#458,#459,#460);
#395=CARTESIAN_POINT('',(1.55530143491714E-19,0.0,-0.00127));
#396=CARTESIAN_POINT('',(1.55530143491714E-19,0.0177984593433689,-0.00127));
#397=VECTOR('',#461,1.0);
#398=AXIS2_PLACEMENT_3D('',#462,#463,#464);
#399=CARTESIAN_POINT('',(0.0,0.0,0.00127));
#400=CARTESIAN_POINT('',(-1.55530143491714E-19,0.0177984593433689,0.00127));
#401=VECTOR('',#465,1.0);
#402=AXIS2_PLACEMENT_3D('',#466,#467,#468);
#403=CARTESIAN_POINT('',(0.0,0.0376318572206297,0.00388494363577406));
#404=AXIS2_PLACEMENT_3D('',#469,#470,#471);
#405=CARTESIAN_POINT('',(4.75768378841859E-19,0.0376318572206297,-0.00388494363577406));
#406=AXIS2_PLACEMENT_3D('',#472,#473,#474);
#407=AXIS2_PLACEMENT_3D('',#475,#476,#477);
#408=CARTESIAN_POINT('',(7.57194128747808E-19,0.0084328,-0.00618295927670734));
#409=VECTOR('',#478,1.0);
#410=AXIS2_PLACEMENT_3D('',#479,#480,#481);
#411=CARTESIAN_POINT('',(-7.57194128747808E-19,0.0084328,0.00618295927670734));
#412=VECTOR('',#482,1.0);
#413=AXIS2_PLACEMENT_3D('',#483,#484,#485);
#414=AXIS2_PLACEMENT_3D('',#486,#487,#488);
#415=AXIS2_PLACEMENT_3D('',#489,#490,#491);
#416=AXIS2_PLACEMENT_3D('',#492,#493,#494);
#417=CARTESIAN_POINT('',(-1.14587699032373E-18,0.00851874977364371,-0.00935679569914795));
#418=DIRECTION('',(1.0,0.0,-1.22464679914735E-16));
#419=DIRECTION('',(-1.22464679914735E-16,-0.0,-1.0));
#420=CARTESIAN_POINT('',(0.0,0.0084328,0.0));
#421=DIRECTION('',(0.0,-1.0,0.0));
#422=DIRECTION('',(0.0,0.0,-1.0));
#423=CARTESIAN_POINT('',(1.14587699032373E-18,0.00851874977364371,0.00935679569914795));
#424=DIRECTION('',(1.0,0.0,-1.22464679914735E-16));
#425=DIRECTION('',(1.22464679914735E-16,0.0,1.0));
#426=CARTESIAN_POINT('',(0.0,0.00587116228858044,0.0));
#427=DIRECTION('',(0.0,-1.0,0.0));
#428=DIRECTION('',(0.0,0.0,-1.0));
#429=DIRECTION('',(-1.02121560284892E-16,0.551936985312056,0.83388582206717));
#430=CARTESIAN_POINT('',(0.0,0.00238194209799903,0.0));
#431=DIRECTION('',(0.0,-1.0,0.0));
#432=DIRECTION('',(0.0,0.0,-1.0));
#433=DIRECTION('',(-1.02121560284892E-16,-0.551936985312056,0.83388582206717));
#434=CARTESIAN_POINT('',(0.0,0.00587116228858044,0.0));
#435=DIRECTION('',(0.0,-1.0,0.0));
#436=DIRECTION('',(0.0,0.0,-1.0));
#437=CARTESIAN_POINT('',(-1.36225209416725E-18,-0.000265645387064228,-0.0111236325046185));
#438=DIRECTION('',(-1.0,-0.0,1.22464679914735E-16));
#439=DIRECTION('',(-1.22464679914735E-16,0.0,-1.0));
#440=CARTESIAN_POINT('',(0.0,0.00238194209799903,0.0));
#441=DIRECTION('',(0.0,-1.0,0.0));
#442=DIRECTION('',(0.0,0.0,-1.0));
#443=CARTESIAN_POINT('',(1.36225209416725E-18,-0.000265645387064228,0.0111236325046185));
#444=DIRECTION('',(-1.0,-0.0,1.22464679914735E-16));
#445=DIRECTION('',(1.22464679914735E-16,0.0,1.0));
#446=CARTESIAN_POINT('',(0.0,0.0,0.0));
#447=DIRECTION('',(0.0,-1.0,0.0));
#448=DIRECTION('',(0.0,0.0,-1.0));
#449=CARTESIAN_POINT('',(-4.66590430475141E-19,0.0355969186867378,0.00381));
#450=DIRECTION('',(-1.0,0.0,-1.22464679914735E-16));
#451=DIRECTION('',(-1.22464679914735E-16,-0.0,1.0));
#452=CARTESIAN_POINT('',(0.0,0.0381,0.0));
#453=DIRECTION('',(0.0,1.0,0.0));
#454=DIRECTION('',(0.0,0.0,1.0));
#455=CARTESIAN_POINT('',(4.66590430475141E-19,0.0355969186867378,-0.00381));
#456=DIRECTION('',(-1.0,0.0,-1.22464679914735E-16));
#457=DIRECTION('',(1.22464679914735E-16,0.0,-1.0));
#458=CARTESIAN_POINT('',(0.0,0.0355969186867378,0.0));
#459=DIRECTION('',(0.0,1.0,0.0));
#460=DIRECTION('',(0.0,0.0,1.0));
#461=DIRECTION('',(0.0,-1.0,0.0));
#462=CARTESIAN_POINT('',(0.0,0.0355969186867378,0.0));
#463=DIRECTION('',(0.0,1.0,0.0));
#464=DIRECTION('',(0.0,0.0,1.0));
#465=DIRECTION('',(-0.0,1.0,-0.0));
#466=CARTESIAN_POINT('',(0.0,0.0,0.0));
#467=DIRECTION('',(0.0,1.0,0.0));
#468=DIRECTION('',(0.0,0.0,1.0));
#469=CARTESIAN_POINT('',(-4.13748100455902E-19,0.037592,0.00337850963023763));
#470=DIRECTION('',(-1.0,0.0,-1.22464679914735E-16));
#471=DIRECTION('',(-1.22464679914735E-16,-0.0,1.0));
#472=CARTESIAN_POINT('',(0.0,0.0376318572206297,0.0));
#473=DIRECTION('',(0.0,-1.0,0.0));
#474=DIRECTION('',(0.0,0.0,1.0));
#475=CARTESIAN_POINT('',(4.13748100455902E-19,0.037592,-0.00337850963023763));
#476=DIRECTION('',(-1.0,0.0,-1.22464679914735E-16));
#477=DIRECTION('',(1.22464679914735E-16,0.0,-1.0));
#478=DIRECTION('',(-9.60846804471013E-18,0.996917333733128,0.0784590957278451));
#479=CARTESIAN_POINT('',(0.0,0.0084328,0.0));
#480=DIRECTION('',(0.0,-1.0,0.0));
#481=DIRECTION('',(0.0,0.0,-1.0));
#482=DIRECTION('',(-9.60846804471013E-18,-0.996917333733128,0.0784590957278451));
#483=CARTESIAN_POINT('',(0.0,0.0376318572206297,0.0));
#484=DIRECTION('',(0.0,-1.0,0.0));
#485=DIRECTION('',(0.0,0.0,1.0));
#486=CARTESIAN_POINT('',(0.0,0.0381,0.0));
#487=DIRECTION('',(0.0,1.0,0.0));
#488=DIRECTION('',(0.0,0.0,1.0));
#489=CARTESIAN_POINT('',(0.0,0.0,0.0));
#490=DIRECTION('',(0.0,1.0,0.0));
#491=DIRECTION('',(0.0,0.0,1.0));
#492=CARTESIAN_POINT('',(0.0,0.0,0.0));
#493=DIRECTION('',(0.0,-1.0,0.0));
#494=DIRECTION('',(0.0,0.0,-1.0));
#495=PRESENTATION_LAYER_ASSIGNMENT('96','NONE',(#50));
ENDSEC;
END-ISO-10303-21;
